Martes, 31 de julio de 2012

Acordes de do y sol7.  Aprenderse bien estos acordses. Se usan mucho.  Hay que estirar los dedos bastante. Hacer ejercicios de estiramiento que os dije un día. 

PRESIONAR LOS DIBUJOS Y SE HACEN MUY GRANDES




Publicado por bach24111 @ 17:33  | Acordes guitarra
Comentarios (0)  | Enviar
Domingo, 29 de julio de 2012

Repaso :

  • Cuerdas al aire.
  • Ejercicios de pulsar cuerdas. Traste 1  traste 2  traste 3  , en todas las cuerdas. Dedos uno, dos y tres.
  • Primera canción para aprender pulsando cuerdas:  cumpleaños féliz.
  • Acompañamiento : en acordes de la y mi, en tres por cuatro y libre.
  • Acordes:   la mayor, mi mayor, do mayor, re mayor y la menor.  Los acordes repasarlos todos los d´ñias.
  • Canciones para aprender. Cumpleaños féliz, los labradores, la cucarcha, y para el próximo día, Sierra de Luna. 

Repasar todos los días los acordes,  y los ejercicios de pulsar cuerdas, hacer ritmo libre co0n todas cuerdas. 

PEDRITO:  REPASA TODOS LOS EJERCICIOS.

Si teneis dudas  mandarme algún comentario y os responderé.  

Los que no tengais los ejercicios os bajais los dibujos y os lo fotocopias

EXPLICACION DE LA TABLATURA. MUY IMPORTANTE. VER EL VIDEO

CUMPLEAÑOS FELIZ

DOS ACORDE:  DO  Y SOL
                                      




                                        LA MAYOR
LOS LABRADORES
LA CUCARACHA


DO MAYOR

LA MENOR

CUERDAS AL AIRE
ESCALA DE DO MAYOR . DESPACIO
MI MAYOR

SOL MAYOR. APRENDEROS ESTE ACORDE . ES MUY IMPORTANTE

RE MAYOR . REPASARLO

LA MENOR




Publicado por bach24111 @ 12:13  | Lecciones guitarra
Comentarios (0)  | Enviar
S?bado, 28 de julio de 2012
TABLATURA

Escucharla muchas veces . Aprenderos la letra

El Ebro guarda silencio: para Clemente y José Luis.

El Ebro guarda silencio

Al pasar por el Pilar

La Virgen está dormida

La Virgen está dormida

No la quiere despertar

Un carretero que viene Cantando

por el arrabal Lleva en el toldo pintada

Lleva en el toldo pintada

Una Virgen del Pilar

Contigo de cinco millas

Viene de Sierra De Luna

Y en lo bollerones lleva

Campanas,campanas,

campanas Las cinco mulas

Besos de nieve y de cumbre

Lleva la nieve el Moncayo

Y las mulas van haciendo

Heridas , heridas

Heridas al empedrado

Cruzando el puente de piedra

Se oye una brava canción

En las torres las campanas

En las torres las campanas

Están tocando a oración

Dos besos traigo en los labios

Pa mi Virgen del Pilar

 Uno me lo dio mi madre

Uno me lo dio mi madre

El otro mi soledad

El perro del carretero

Juega con la mula torda

Es que sabe que han llegado

Llegado, llegado

Que ha llegado a Zaragoza

El Ebro guarda silencio

Al pasar por el Pilar

La Virgen está dormida

La Virgen está dormida

No la quiere despertar


Publicado por bach24111 @ 21:26  | Canciones
Comentarios (0)  | Enviar

Aprender la letra para tocarla el próximo día.

       Porque vienen tan contentos los labradores 

 que cuando vuelven del campo vienen cantando

     que ya  va cercano el fruto de sus sudores

  porque las espigas de oro ya van granando

  porque las espigas de oro  ya van granando

  porque vienen tan contentos los labradores


Publicado por bach24111 @ 21:13  | Canciones
Comentarios (0)  | Enviar
Viernes, 27 de julio de 2012

Nueva sección para los que tocamos laúd y bandurria.

ACORDES

05 Acordes Laud


Publicado por bach24111 @ 14:58  | LAUD Y BANDURRIA
Comentarios (0)  | Enviar
Jueves, 26 de julio de 2012
Pinchar los dibujos




Esta canción la tocaremos con cuerdas, así iremos aprendiendo a tocar las cuerdas. 
BAJO PARA PEDRITO:




Publicado por bach24111 @ 15:30  | Canciones
Comentarios (0)  | Enviar
Martes, 17 de julio de 2012
En este Ejercicio vamos a aprender las figuras:  negra, blanca y redonda.
Las mediremos y las tocaremos en la guitarra con la nota sol 






Publicado por bach24111 @ 16:25  | Escalas
Comentarios (0)  | Enviar
Lunes, 16 de julio de 2012

Cuerdas al aire y la nota sol.


Publicado por bach24111 @ 21:40  | Bajo el?ctrico
Comentarios (0)  | Enviar
Domingo, 15 de julio de 2012

IR A LOS ARCHIVOS PARA QUE LOS FOTOCOPIES. IMAGENES Y MUCHO MAS DE ESTE EJERCICIO. ES MUY IMPORTANTE QUE TENGAIS LAS IMAGENES FOTOCOPIADAS.

Así tiene que sonar.  El coro cantará la canción.

ACORDES A USAR:

PINCHAR LOS DIBUJOS Y SE VERÁN MUY GRANDES



VIDEOS : BAJO, MELODÍA , COMPLETA.




  • Canción con los acordes de la mayor y mi mayor.
  • Aprenderos la letra
  • Cantaremos. 
  • Bajo : la   y mi (  cuerda 3ª al aire y cuerda 2ª al aire.
  • Guitarra : acorde de la mayor y mi mayor: aprenderos bien los acorde.
  • Piano:  José Luis.
  • Bateria , un niño o una niña.
  • Y varios instrumentos de percusion.
  • La aprenderemos para el festival de agosto.
MELODIA



ACORDES

BAJO
TODO


Llevaré la letra para aprenderla. 
Teneis que conseguir atriles para las partituras. O al go que las sujete para leer comodamente.
La Cucaracha
Canción tradicional


La cucaracha, la cucaracha,
ya no puede caminar
porque no tiene,
porque le falta
las dos patitas de atrás.

 Ya murió la cucaracha,
Ya la llevan a enterrar,
Entre cuatro zopilotes
Y un ratón de sacristán
La cucaracha, la cucaracha,
Ya no puede caminar;
Porque no tiene,
porque le falta
Marihuana que fumar
Cuando uno quiere a una
Y esta una no lo quiere,
Es lo mismo que si un calvo
En la calle encuetre un peine. 
(Coro)
Las muchachas mexicanas
Son lindas como una flor,
Y hablan tan dulcemente
Que encantan de amor.
(Coro)
Las muchachas de Las Vegas
Son muy altas y delgaditas,
Pero son más pedigüeñas
Que las ánimas benditas.
(Coro)
Las muchachas de Sediles
No saben ni dar un beso,
Cuando las de Villalba
Hasta estiran el pescuezo.
(Coro)
Un panadero fue a misa,
No encontrando que rezar,
Le pidió a la Virgen pura,
Marihuana pa fumar
(Coro)

Publicado por bach24111 @ 19:49  | Canciones
Comentarios (0)  | Enviar
Viernes, 13 de julio de 2012

En internet hay muchos videos en donde poder aprender los acordes. Fijaros en este: 


Publicado por bach24111 @ 16:25  | Acordes guitarra
Comentarios (0)  | Enviar


Un  ejercicio para tocar varios acordes.
Notas negras.
Signo de repetición:  repetir el ejercicio.>


Publicado por bach24111 @ 13:35  | Acordes guitarra
Comentarios (0)  | Enviar
Jueves, 12 de julio de 2012

De Do mayor guitarra

De GUITARRA sediles

acorde de do mayor 

Cuerdas al aire . Cuatro tiempos notas negras.

Las mediremos y pondré un ritmo para que se oigan las 4 notas de cada compás.

Teoría notas negras . Compás. 

Los acordes de do mayor y de la menor.

Repasar los acordes : la   re   mi.


Publicado por bach24111 @ 22:35  | Lecciones guitarra
Comentarios (0)  | Enviar
S?bado, 07 de julio de 2012
Se mi a fa medio tono, de si a do medio tono.

Una escala es la sucesión de sonidos ordenados por tonos y semitonos. 
Nos va a indicar según los tonos y semitonos si es mayor, menor, aumentada, disminuida , por tonos.....
Comenzaremos por la más sencilla : la escala de do mayor. Pretenece a la tonalidad de do mayor.
Mp3.

Publicado por bach24111 @ 15:31  | Escalas
Comentarios (0)  | Enviar
Viernes, 06 de julio de 2012

En este video explicación del piano, motas diatonicas y en video las direcciones de las explicaciones.

Ir a you tube y pongo las direcciones de los videos para verlos.

Dirección de los dos videos para ver completos:

DIBUJO PIANO

http://www.youtube.com/watch?v=Z12NjQxA45Q

NOTAS DIATONICAS: do re mi fa sol la si

http://www.youtube.com/watch?v=18C1R2tpbkw



Publicado por bach24111 @ 16:00  | Curso piano
Comentarios (0)  | Enviar
Mi?rcoles, 04 de julio de 2012

e|----------------------------------------------------------------------------------------0----1-----3----------0------------| 
B|------------------------------------------------------------------0------1------3-----------------------------0------------| 
G|--------------------------------------------------0----1----3-------------------------------------------------0------------| 
D|----------------------------------0----1----3-----------------------------------------------------------------0------------| 
A|------------------0----1----3---------------------------------------------------------------------------------0------------| 
E|--0----1----3-------------------------------------------------------------------------------------------------0------------| 

                                  

e|--------------------------------2-----------------------------| 
B|--------------------------3-----------------------------------| 
G|--------------------0-----------------------------------------| 
D|--------------1-----------------------------------------------| 
A|-------2------------------------------------------------------| 
E|-3------------------------------------------------------------| 


e|-----------------------------------0--------------------------| 
B|-----------------------------0--------------------------------| 
G|------------------------3-------------------------------------| 
D|------------------3-------------------------------------------| 
A|----------2---------------------------------------------------| 
E|--2-----------------------------------------------------------| 


Publicado por bach24111 @ 15:57  | Lecciones guitarra
Comentarios (0)  | Enviar

Las Tablaturas 

La tablatura es una representación del brazo de la guitarra por medio de seis lineas dispuestas de manera horizontal representando las cuerdas de la guitarra. 
A la izquierda, al principio de cada linea horizontal se colocan letras en cifrado americano que dicen las notas de cada cuerda. La cuerda mas aguda estara representada arriba de todo, es decir es la primera linea que se dibuja, en ocasiones la primera cuerda se dibuja con una "e" minúscula al lado. 


e|-------------------------------------------------------------| 
B|-------------------------------------------------------------| 
G|-------------------------------------------------------------| 
D|-------------------------------------------------------------| 
A|-------------------------------------------------------------| 
E|-------------------------------------------------------------| 


Basicamente, la tablatura indica que nota se debe tocar en el lugar exacto (esta es la gran diferencia que existe con respecto a la partitura en donde  debe deducir que digitación usar).Los numeros representaran el traste en el que esta ubicada la nota, en el caso de que diga 0 se tomará como una cuerda al aire. 


Publicado por bach24111 @ 15:51  | Lecciones guitarra
Comentarios (0)  | Enviar

Para el bajista de Sediles: fijate en este dibujo y en él tienes todas las notas del bajo. Apréndete primero las cuerdas al aire:

tablatura  
G|-------------------------------------0------------------------| 
D|--------------------------0-----------------------------------| 
A|--------------0-----------------------------------------------| 
E|--0-----------------------------------------------------------| 


Las cuerdas al aire . 

MI

LA

RE

SOL

Una página para saber donde están las diferentes notas en el mastil del bajo eléctrico.  

IR A LA PAGINA


Publicado por bach24111 @ 15:35  | Bajo el?ctrico
Comentarios (0)  | Enviar

No habrá clase pues tengo una celebración en Zaragoza.

El que lea este artículo que se lo diga a los demás.

Aprenderos el acorde de do  IR AL ARTICULO Y HE PUESTO UN VIDEO.

  • Cuerdas al aire con el dedo pulgar. Nombra las notas que son:   MI   LA   RE    SOL   SI   MI.
  • Cuerdas al aire con el dedo indice y apoyar el dedo después de dar la nota.
  • Traste uno de todas las cuerdas. Dedo pulgar e indice.
  • Traste dos igual.
  • Traste tres.
  • Traste cuatro.
  • Ejercicio cuerda al aire , traste uno , traste dos , traste tres de todas las cuerdas.
  • Acordes, repasarlos:   la mayor, mi mayor, re mayor, la menor y do mayor. 
  • Procurar poner los dedos curvados y que suenen todas cuerdas, rasguear y hacerlo pulsando tres notas. 

Acorde para guitarra: Nuevo acorde: do mayor. Corrección: digo traste 3 de la cuerda cuatro , corrijo, es traste tres de la cuerda cinco. Escala do mayor

Acorde para guitarra:

Nuevo acorde:  do mayor.


Escala do mayor

Acorde para guitarra:
Nuevo acorde:  do mayor.
Corrección: digo traste 3 de la cuerda cuatro , corrijo, es traste tres de la cuerda cinco.

Escala do mayor

Publicado por bach24111 @ 10:26
Comentarios (0)  | Enviar
Martes, 03 de julio de 2012
Comenzamos las clases de bajo eléctrico.



En el bajo tenemos cuatro cuerdas. Las nombraremos 1ª, 2ª, 3ª, 4ª.
Para poner las notas usaremos la tablatura que es un dibujo con 4 lineas horizontales, cada linea representa una cuerda.

Para dividir la tablatura ponemos unas lineas horizontales que nos dividirán las lkineas en parte iguales. En ellas pondremos números que representan las notas musicales.

Comenzamos con el número cero: 0, nos indica que pulsaremos la cuerda al aire , sin presionar ningún traste. El traste es la división en partes del mástil del bajo. Tiene su nombre. Traste uno, traste dos etc....
En este video explico la tablatura y los trastes al aire.

Publicado por bach24111 @ 9:46  | Bajo el?ctrico
Comentarios (0)  | Enviar
Lunes, 02 de julio de 2012

e|-------------------------------------------------------------| 
B|-------------------------------------------------------------| 
G|-------------------------------------------------------------| 
D|-------------------------------------------------------------| 
A|-------------------------------------------------------------| 
E|-------------------------------------------------------------| 

Esto es una tablatura 

Cuerdas al aire

e|---------------------------0----------------------------------|     mi
B|----------------------0----------0-----------------------------|   si
G|-----------------0--------------------0------------------------|   sol 
D|------------0-------------------------------0------------------|   re
A|-------0------------------------------------------0------------|   la
E|--0---------------------------------------------------0--------|   mi

Acorde para guitarra:
Nuevo acorde:  do mayor.
Corrección: digo traste 3 de la cuerda cuatro , corrijo, es traste tres de la cuerda cinco.

Escala do mayor










Video de la tablatura.

Publicado por bach24111 @ 16:39  | Acordes guitarra
Comentarios (0)  | Enviar