Mi?rcoles, 04 de julio de 2012

e|----------------------------------------------------------------------------------------0----1-----3----------0------------| 
B|------------------------------------------------------------------0------1------3-----------------------------0------------| 
G|--------------------------------------------------0----1----3-------------------------------------------------0------------| 
D|----------------------------------0----1----3-----------------------------------------------------------------0------------| 
A|------------------0----1----3---------------------------------------------------------------------------------0------------| 
E|--0----1----3-------------------------------------------------------------------------------------------------0------------| 

                                  

e|--------------------------------2-----------------------------| 
B|--------------------------3-----------------------------------| 
G|--------------------0-----------------------------------------| 
D|--------------1-----------------------------------------------| 
A|-------2------------------------------------------------------| 
E|-3------------------------------------------------------------| 


e|-----------------------------------0--------------------------| 
B|-----------------------------0--------------------------------| 
G|------------------------3-------------------------------------| 
D|------------------3-------------------------------------------| 
A|----------2---------------------------------------------------| 
E|--2-----------------------------------------------------------| 


Publicado por bach24111 @ 15:57  | Lecciones guitarra
Comentarios (0)  | Enviar
Comentarios