Lunes, 02 de julio de 2012

e|-------------------------------------------------------------| 
B|-------------------------------------------------------------| 
G|-------------------------------------------------------------| 
D|-------------------------------------------------------------| 
A|-------------------------------------------------------------| 
E|-------------------------------------------------------------| 

Esto es una tablatura 

Cuerdas al aire

e|---------------------------0----------------------------------|     mi
B|----------------------0----------0-----------------------------|   si
G|-----------------0--------------------0------------------------|   sol 
D|------------0-------------------------------0------------------|   re
A|-------0------------------------------------------0------------|   la
E|--0---------------------------------------------------0--------|   mi

Acorde para guitarra:
Nuevo acorde:  do mayor.
Corrección: digo traste 3 de la cuerda cuatro , corrijo, es traste tres de la cuerda cinco.

Escala do mayor










Video de la tablatura.

Publicado por bach24111 @ 16:39  | Acordes guitarra
Comentarios (0)  | Enviar
Comentarios